  0
SECTION
  2
HEADER
  9
$ACADVER
  1
AC1009
  9
$INSBASE
 10
0.0
 20
0.0
 30
0.0
  9
$EXTMIN
 10
-80.010985489947416
 20
-131.2230041669695
 30
-0.0015258207003583
  9
$EXTMAX
 10
280.01098716632811
 20
403.5481165140169
 30
0.0000000349246037
  9
$LIMMIN
 10
0.0
 20
0.0
  9
$LIMMAX
 10
0.0
 20
0.0
  9
$ORTHOMODE
 70
     0
  9
$REGENMODE
 70
     1
  9
$FILLMODE
 70
     1
  9
$QTEXTMODE
 70
     0
  9
$MIRRTEXT
 70
     1
  9
$DRAGMODE
 70
     2
  9
$LTSCALE
 40
10.16
  9
$OSMODE
 70
   167
  9
$ATTMODE
 70
     1
  9
$TEXTSIZE
 40
0.0
  9
$TRACEWID
 40
1.0
  9
$TEXTSTYLE
  7
STANDARD
  9
$CLAYER
  8
0
  9
$CELTYPE
  6
CONTINUOUS
  9
$CECOLOR
 62
   256
  9
$DIMSCALE
 40
1.0
  9
$DIMASZ
 40
0.18
  9
$DIMEXO
 40
0.0625
  9
$DIMDLI
 40
0.38
  9
$DIMRND
 40
0.0
  9
$DIMDLE
 40
0.0
  9
$DIMEXE
 40
0.18
  9
$DIMTP
 40
0.0
  9
$DIMTM
 40
0.0
  9
$DIMTXT
 40
0.18
  9
$DIMCEN
 40
0.09
  9
$DIMTSZ
 40
0.0
  9
$DIMTOL
 70
     0
  9
$DIMLIM
 70
     0
  9
$DIMTIH
 70
     1
  9
$DIMTOH
 70
     1
  9
$DIMSE1
 70
     0
  9
$DIMSE2
 70
     0
  9
$DIMTAD
 70
     0
  9
$DIMZIN
 70
     0
  9
$DIMBLK
  1

  9
$DIMASO
 70
     1
  9
$DIMSHO
 70
     1
  9
$DIMPOST
  1

  9
$DIMAPOST
  1

  9
$DIMALT
 70
     0
  9
$DIMALTD
 70
     2
  9
$DIMALTF
 40
25.399999999999999
  9
$DIMLFAC
 40
1.0
  9
$DIMTOFL
 70
     0
  9
$DIMTVP
 40
0.0
  9
$DIMTIX
 70
     0
  9
$DIMSOXD
 70
     0
  9
$DIMSAH
 70
     0
  9
$DIMBLK1
  1

  9
$DIMBLK2
  1

  9
$DIMSTYLE
  2
STANDARD
  9
$DIMCLRD
 70
     0
  9
$DIMCLRE
 70
     0
  9
$DIMCLRT
 70
     0
  9
$DIMTFAC
 40
1.0
  9
$DIMGAP
 40
0.09
  9
$LUNITS
 70
     2
  9
$LUPREC
 70
     4
  9
$SKETCHINC
 40
0.1
  9
$FILLETRAD
 40
0.0
  9
$AUNITS
 70
     0
  9
$AUPREC
 70
     0
  9
$MENU
  1
acad
  9
$ELEVATION
 40
0.0
  9
$PELEVATION
 40
0.0
  9
$THICKNESS
 40
0.0
  9
$LIMCHECK
 70
     0
  9
$BLIPMODE
 70
     0
  9
$CHAMFERA
 40
0.0
  9
$CHAMFERB
 40
0.0
  9
$SKPOLY
 70
     0
  9
$TDCREATE
 40
2452516.6187152779
  9
$TDUPDATE
 40
2452516.6534225689
  9
$TDINDWG
 40
0.000268287
  9
$TDUSRTIMER
 40
0.000268287
  9
$USRTIMER
 70
     1
  9
$ANGBASE
 50
0.0
  9
$ANGDIR
 70
     0
  9
$PDMODE
 70
     1
  9
$PDSIZE
 40
-2.0
  9
$PLINEWID
 40
0.0
  9
$COORDS
 70
     0
  9
$SPLFRAME
 70
     0
  9
$SPLINETYPE
 70
     6
  9
$SPLINESEGS
 70
     8
  9
$ATTDIA
 70
     0
  9
$ATTREQ
 70
     1
  9
$HANDLING
 70
 22529
  9
$HANDSEED
  5
287
  9
$SURFTAB1
 70
     6
  9
$SURFTAB2
 70
     6
  9
$SURFTYPE
 70
     6
  9
$SURFU
 70
     6
  9
$SURFV
 70
     6
  9
$UCSNAME
  2

  9
$UCSORG
 10
0.0
 20
0.0
 30
0.0
  9
$UCSXDIR
 10
1.0
 20
0.0
 30
0.0
  9
$UCSYDIR
 10
0.0
 20
1.0
 30
0.0
  9
$PUCSNAME
  2

  9
$PUCSORG
 10
0.0
 20
0.0
 30
0.0
  9
$PUCSXDIR
 10
1.0
 20
0.0
 30
0.0
  9
$PUCSYDIR
 10
0.0
 20
1.0
 30
0.0
  9
$USERI1
 70
     0
  9
$USERI2
 70
     0
  9
$USERI3
 70
     0
  9
$USERI4
 70
     0
  9
$USERI5
 70
     0
  9
$USERR1
 40
0.0
  9
$USERR2
 40
0.0
  9
$USERR3
 40
0.0
  9
$USERR4
 40
0.0
  9
$USERR5
 40
0.0
  9
$WORLDVIEW
 70
     1
  9
$SHADEDGE
 70
     3
  9
$SHADEDIF
 70
    70
  9
$TILEMODE
 70
     1
  9
$MAXACTVP
 70
    16
  9
$PLIMCHECK
 70
     0
  9
$PEXTMIN
 10
1.0000000000000000E+020
 20
1.0000000000000000E+020
 30
1.0000000000000000E+020
  9
$PEXTMAX
 10
-1.0000000000000000E+020
 20
-1.0000000000000000E+020
 30
-1.0000000000000000E+020
  9
$PLIMMIN
 10
0.0
 20
0.0
  9
$PLIMMAX
 10
12.0
 20
9.0
  9
$UNITMODE
 70
     0
  9
$VISRETAIN
 70
     0
  9
$PLINEGEN
 70
     1
  9
$PSLTSCALE
 70
     0
  0
ENDSEC
  0
SECTION
  2
TABLES
  0
TABLE
  2
VPORT
 70
     2
  0
VPORT
  2
*ACTIVE
 70
     0
 10
0.0
 20
0.0
 11
1.0
 21
1.0
 12
100.0000012962185
 22
136.1625555517887
 13
0.0
 23
0.0
 14
1.0
 24
1.0
 15
0.0
 25
0.0
 16
0.0
 26
0.0
 36
1.0
 17
0.0
 27
0.0
 37
0.0
 40
578.21776380879373
 41
1.664912280701754
 42
50.0
 43
0.0
 44
0.0
 50
0.0
 51
0.0
 71
     0
 72
   100
 73
     1
 74
     1
 75
     0
 76
     0
 77
     0
 78
     0
  0
ENDTAB
  0
TABLE
  2
LTYPE
 70
    11
  0
LTYPE
  2
CONTINUOUS
 70
     0
  3
Solid line
 72
    65
 73
     0
 40
0.0
  0
LTYPE
  2
STYLE_01
 70
     0
  3

 72
    65
 73
     2
 40
0.4166412353515625
 49
0.208282470703125
 49
-0.2083587646484375
  0
LTYPE
  2
STYLE_02
 70
     0
  3

 72
    65
 73
     2
 40
0.694427490234375
 49
0.4860687255859375
 49
-0.2083587646484375
  0
LTYPE
  2
STYLE_03
 70
     0
  3

 72
    65
 73
     2
 40
1.25
 49
1.0416412353515621
 49
-0.2083587646484375
  0
LTYPE
  2
STYLE_04
 70
     0
  3

 72
    65
 73
     2
 40
1.5277099609375
 49
1.319427490234375
 49
-0.208282470703125
  0
LTYPE
  2
STYLE_05
 70
     0
  3

 72
    65
 73
     2
 40
0.208282470703125
 49
0.069427490234375
 49
-0.13885498046875
  0
LTYPE
  2
STYLE_06
 70
     0
  3

 72
    65
 73
     4
 40
1.0416412353515621
 49
0.625
 49
-0.208282470703125
 49
0.069427490234375
 49
-0.1389312744140625
  0
LTYPE
  2
STYLE_07
 70
     0
  3

 72
    65
 73
     6
 40
1.875
 49
0.625
 49
-0.208282470703125
 49
0.625
 49
-0.2083587646484375
 49
0.069427490234375
 49
-0.1389312744140625
  0
LTYPE
  2
STYLE_08
 70
     0
  3

 72
    65
 73
     6
 40
1.25
 49
0.625
 49
-0.208282470703125
 49
0.069427490234375
 49
-0.1389312744140625
 49
0.069427490234375
 49
-0.1389312744140625
  0
LTYPE
  2
STYLE_09
 70
     0
  3

 72
    65
 73
     4
 40
5.0
 49
3.75
 49
-0.2777862548828125
 49
0.694427490234375
 49
-0.2777862548828125
  0
LTYPE
  2
STYLE_10
 70
     0
  3

 72
    65
 73
     6
 40
5.9375
 49
3.75
 49
-0.2777862548828125
 49
0.694427490234375
 49
-0.2777862548828125
 49
0.625
 49
-0.3125
  0
ENDTAB
  0
TABLE
  2
LAYER
 70
     4
  0
LAYER
  2
0
 70
     0
 62
     7
  6
CONTINUOUS
  0
LAYER
  2
HIBINO-BASE
 70
     0
 62
     7
  6
CONTINUOUS
  0
LAYER
  2
DIMNSIONS
 70
     0
 62
     7
  6
CONTINUOUS
  0
LAYER
  2
DATA
 70
     0
 62
     7
  6
CONTINUOUS
  0
ENDTAB
  0
TABLE
  2
STYLE
 70
     2
  0
STYLE
  2
STANDARD
 70
     0
 40
0.0
 41
1.0
 50
0.0
 71
     0
 42
0.0
  3
txt
  4
BIGFONT.SHX
  0
ENDTAB
  0
TABLE
  2
VIEW
 70
     0
  0
ENDTAB
  0
TABLE
  2
UCS
 70
     0
  0
ENDTAB
  0
TABLE
  2
APPID
 70
     1
  0
APPID
  2
ACAD
 70
     0
  0
ENDTAB
  0
TABLE
  2
DIMSTYLE
 70
     1
  0
DIMSTYLE
  2
STANDARD
 70
     0
  3

  4

  5

  6

  7

 40
1.0
 41
0.18
 42
0.0625
 43
0.38
 44
0.18
 45
0.0
 46
0.0
 47
0.0
 48
0.0
140
0.18
141
0.09
142
0.0
143
25.399999999999999
144
1.0
145
0.0
146
1.0
147
0.09
 71
     0
 72
     0
 73
     1
 74
     1
 75
     0
 76
     0
 77
     0
 78
     0
170
     0
171
     2
172
     0
173
     0
174
     0
175
     0
176
     0
177
     0
178
     0
  0
ENDTAB
  0
ENDSEC
  0
SECTION
  2
BLOCKS
  0
BLOCK
  8
0
  2
$MODEL_SPACE
 70
     0
 10
0.0
 20
0.0
 30
0.0
  3
$MODEL_SPACE
  1

  0
ENDBLK
  5
15B
  8
0
  0
BLOCK
 67
     1
  8
0
  2
$PAPER_SPACE
 70
     0
 10
0.0
 20
0.0
 30
0.0
  3
$PAPER_SPACE
  1

  0
ENDBLK
  5
157
 67
     1
  8
0
  0
ENDSEC
  0
SECTION
  2
ENTITIES
  0
LINE
  5
170
  8
HIBINO-BASE
  6
CONTINUOUS
 62
     7
 10
-79.999999999999986
 20
403.53181499999999
 30
0.0
 11
279.99999999999989
 21
403.53181499999999
 31
0.0
  0
LINE
  5
171
  8
HIBINO-BASE
  6
CONTINUOUS
 62
     7
 10
279.99999999999989
 20
-116.46818500000001
 30
0.0
 11
-79.999999999999986
 21
-116.46818500000001
 31
0.0
  0
LINE
  5
172
  8
HIBINO-BASE
  6
CONTINUOUS
 62
     7
 10
-79.999999999999986
 20
-116.46818500000001
 30
0.0
 11
-79.999999999999986
 21
403.53181499999999
 31
0.0
  0
TEXT
  5
173
  8
HIBINO-BASE
 62
     7
 10
-65.631999999999991
 20
-128.72415299999989
 30
0.0
 40
7.4851679999999989
  1
Hibino Corporation
 41
0.8
 11
-65.631999999999991
 21
-121.2389849999999
 31
0.0
 73
     3
  0
LINE
  5
174
  8
HIBINO-BASE
  6
CONTINUOUS
 62
     7
 10
279.99999999999989
 20
403.53181499999999
 30
0.0
 11
279.99999999999989
 21
-116.46818500000001
 31
0.0
  0
LINE
  5
175
  8
HIBINO-BASE
  6
CONTINUOUS
 62
     7
 10
100.0
 20
-71.468184999999977
 30
0.0
 11
279.99999999999989
 21
-71.468184999999977
 31
0.0
  0
LINE
  5
176
  8
HIBINO-BASE
  6
CONTINUOUS
 62
     7
 10
100.0
 20
-116.46818500000001
 30
0.0
 11
100.0
 21
-71.468184999999977
 31
0.0
  0
TEXT
  5
177
  8
HIBINO-BASE
 62
     7
 10
101.7999999999999
 20
-76.231571666666653
 30
0.0
 40
3.3866666666666658
  1
NOTE
 41
0.8
 11
101.7999999999999
 21
-72.844904999999983
 31
0.0
 73
     3
  0
LINE
  5
178
  8
HIBINO-BASE
  6
CONTINUOUS
 62
     7
 10
170.0
 20
-116.46818500000001
 30
0.0
 11
170.0
 21
-71.468184999999977
 31
0.0
  0
TEXT
  5
179
  8
HIBINO-BASE
 62
     7
 10
171.7999999999999
 20
-76.231571666666653
 30
0.0
 40
3.3866666666666658
  1
TITLE
 41
0.8
 11
171.7999999999999
 21
-72.844904999999983
 31
0.0
 73
     3
  0
TEXT
  5
17A
  8
HIBINO-BASE
 62
     7
 10
200.1367799999999
 20
-128.72415299999989
 30
0.0
 40
7.4851679999999989
  1
ヒビノ株式会社
 41
0.8
 11
200.1367799999999
 21
-121.2389849999999
 31
0.0
 73
     3
  0
LINE
  5
17B
  8
HIBINO-BASE
  6
CONTINUOUS
 62
     7
 10
100.0
 20
-96.468184999999963
 30
0.0
 11
279.99999999999989
 21
-96.468184999999963
 31
0.0
  0
TEXT
  5
17C
  8
HIBINO-BASE
 62
     7
 10
196.80000000000001
 20
-101.1189316666666
 30
0.0
 40
3.3866666666666658
  1
DRAWN
 41
0.8
 11
196.80000000000001
 21
-97.732264999999984
 31
0.0
 73
     3
  0
TEXT
  5
17D
  8
HIBINO-BASE
 62
     7
 10
146.7999999999999
 20
-101.1189316666666
 30
0.0
 40
3.3866666666666658
  1
DATE
 41
0.8
 11
146.7999999999999
 21
-97.732264999999984
 31
0.0
 73
     3
  0
TEXT
  5
17E
  8
HIBINO-BASE
 62
     7
 10
102.2
 20
-101.4530969999999
 30
0.0
 40
3.386671999999999
  1
図面サイズ
 41
0.8
 11
102.2
 21
-98.066424999999981
 31
0.0
 73
     3
  0
TEXT
  5
17F
  8
HIBINO-BASE
 62
     7
 10
126.7999999999999
 20
-101.1189316666666
 30
0.0
 40
3.3866666666666658
  1
SCALE
 41
0.8
 11
126.7999999999999
 21
-97.732264999999984
 31
0.0
 73
     3
  0
TEXT
  5
180
  8
HIBINO-BASE
 62
     7
 10
171.7999999999999
 20
-101.1189316666666
 30
0.0
 40
3.3866666666666658
  1
DESIGN
 41
0.8
 11
171.7999999999999
 21
-97.732264999999984
 31
0.0
 73
     3
  0
TEXT
  5
181
  8
HIBINO-BASE
 62
     7
 10
246.7999999999999
 20
-101.1189316666666
 30
0.0
 40
3.3866666666666658
  1
DRAWING NO.
 41
0.8
 11
246.7999999999999
 21
-97.732264999999984
 31
0.0
 73
     3
  0
TEXT
  5
182
  8
HIBINO-BASE
 62
     7
 10
221.7999999999999
 20
-101.1189316666666
 30
0.0
 40
3.3866666666666658
  1
CHECK
 41
0.8
 11
221.7999999999999
 21
-97.732264999999984
 31
0.0
 73
     3
  0
LINE
  5
183
  8
HIBINO-BASE
  6
CONTINUOUS
 62
     7
 10
128.74999999999989
 20
-113.96818500000001
 30
0.0
 11
136.25
 21
-106.46818499999991
 31
0.0
  0
TEXT
  5
184
  8
HIBINO-BASE
 62
     7
 10
127.5
 20
-108.4320716666666
 30
0.0
 40
3.3866666666666658
  1
1
 41
0.8
 11
127.5
 21
-105.045405
 31
0.0
 73
     3
  0
LINE
  5
185
  8
HIBINO-BASE
  6
CONTINUOUS
 62
     7
 10
125.0
 20
-116.46818500000001
 30
0.0
 11
125.0
 21
-96.468184999999963
 31
0.0
  0
LINE
  5
186
  8
HIBINO-BASE
  6
CONTINUOUS
 62
     7
 10
144.99999999999989
 20
-116.46818500000001
 30
0.0
 11
144.99999999999989
 21
-96.468184999999963
 31
0.0
  0
LINE
  5
187
  8
HIBINO-BASE
  6
CONTINUOUS
 62
     7
 10
195.0
 20
-96.468184999999963
 30
0.0
 11
195.0
 21
-116.46818500000001
 31
0.0
  0
LINE
  5
188
  8
HIBINO-BASE
  6
CONTINUOUS
 62
     7
 10
245.0
 20
-96.468184999999963
 30
0.0
 11
245.0
 21
-116.46818500000001
 31
0.0
  0
LINE
  5
189
  8
HIBINO-BASE
  6
CONTINUOUS
 62
     7
 10
220.0
 20
-116.46818500000001
 30
0.0
 11
220.0
 21
-96.468184999999963
 31
0.0
  0
TEXT
  5
18A
  8
HIBINO-BASE
 62
     7
 10
146.71307999999991
 20
-110.48689166666659
 30
0.0
 40
3.3866666666666658
  1
'99.08.
 41
0.8
 11
146.71307999999991
 21
-107.10022499999999
 31
0.0
 73
     3
  0
TEXT
  5
18B
  8
HIBINO-BASE
 62
     7
 10
135.0
 20
-112.1820716666666
 30
0.0
 40
3.3866666666666658
  1
2
 41
0.8
 11
135.0
 21
-108.795405
 31
0.0
 73
     3
  0
TEXT
  5
18C
  8
HIBINO-BASE
 62
     7
 10
198.0116200220692
 20
-110.48689166666659
 30
0.0
 40
3.3866666666666658
  1
N.Sasaki
 41
0.8
 11
198.0116200220692
 21
-107.10022499999999
 31
0.0
 73
     3
  0
TEXT
  5
18D
  8
HIBINO-BASE
 62
     7
 10
107.76666666666659
 20
-112.0081849999999
 30
0.0
 40
6.7733333333333317
  1
A4
 41
0.8
 11
107.76666666666659
 21
-105.2348516666666
 31
0.0
 73
     3
  0
TEXT
  5
18E
  8
DIMNSIONS
 62
     7
 10
60.0
 20
-91.548204999999967
 30
0.0
 40
5.0800000000000001
  1
(単位：mm)
 41
0.8
 11
60.0
 21
-86.468204999999983
 31
0.0
 73
     3
  0
LINE
  5
18F
  8
DIMNSIONS
  6
CONTINUOUS
 62
     7
 10
4.0000000000000417
 20
198.0
 30
0.0
 11
41.5
 21
198.0
 31
0.0
  0
LINE
  5
190
  8
DIMNSIONS
  6
CONTINUOUS
 62
     7
 10
23.749999999999979
 20
250.0
 30
0.0
 11
41.5
 21
250.0
 31
0.0
  0
LINE
  5
191
  8
DIMNSIONS
 62
     7
 10
37.5
 20
198.0
 30
0.0
 11
36.159920409699517
 21
203.00124511718749
 31
0.0
  0
LINE
  5
192
  8
DIMNSIONS
 62
     7
 10
37.5
 20
198.0
 30
0.0
 11
38.840079590300469
 21
203.00124511718749
 31
0.0
  0
LINE
  5
193
  8
DIMNSIONS
 62
     7
 10
37.5
 20
250.0
 30
0.0
 11
38.840079590300469
 21
244.99875488281251
 31
0.0
  0
LINE
  5
194
  8
DIMNSIONS
 62
     7
 10
37.5
 20
250.0
 30
0.0
 11
36.159920409699517
 21
244.99875488281251
 31
0.0
  0
LINE
  5
195
  8
DIMNSIONS
  6
CONTINUOUS
 62
     7
 10
37.5
 20
198.0
 30
0.0
 11
37.5
 21
250.0
 31
0.0
  0
TEXT
  5
196
  8
DIMNSIONS
 62
     7
 10
35.088888888888889
 20
220.4722222222222
 30
0.0
 40
5.6444444444444439
  1
52
 50
90.0
 41
0.8
 11
29.444444444444439
 21
220.4722222222222
 31
0.0
 73
     3
  0
LINE
  5
197
  8
DIMNSIONS
  6
CONTINUOUS
 62
     7
 10
-23.750000000000071
 20
136.75
 30
0.0
 11
-41.500000000000007
 21
136.75
 31
0.0
  0
LINE
  5
198
  8
DIMNSIONS
  6
CONTINUOUS
 62
     7
 10
-23.749999999999961
 20
63.250000000000057
 30
0.0
 11
-41.500000000000007
 21
63.250000000000057
 31
0.0
  0
LINE
  5
199
  8
DIMNSIONS
 62
     7
 10
-37.500000000000007
 20
136.75
 30
0.0
 11
-36.159920409699517
 21
131.74875488281251
 31
0.0
  0
LINE
  5
19A
  8
DIMNSIONS
 62
     7
 10
-37.500000000000007
 20
136.75
 30
0.0
 11
-38.840079590300498
 21
131.74875488281251
 31
0.0
  0
LINE
  5
19B
  8
DIMNSIONS
 62
     7
 10
-37.500000000000007
 20
63.250000000000057
 30
0.0
 11
-38.840079590300498
 21
68.251245117187551
 31
0.0
  0
LINE
  5
19C
  8
DIMNSIONS
 62
     7
 10
-37.500000000000007
 20
63.250000000000057
 30
0.0
 11
-36.159920409699517
 21
68.251245117187551
 31
0.0
  0
LINE
  5
19D
  8
DIMNSIONS
  6
CONTINUOUS
 62
     7
 10
-37.500000000000007
 20
136.75
 30
0.0
 11
-37.500000000000007
 21
63.250000000000057
 31
0.0
  0
TEXT
  5
19E
  8
DIMNSIONS
 62
     7
 10
-39.911111111111111
 20
92.944444444444485
 30
0.0
 40
5.6444444444444439
  1
73.5
 50
90.0
 41
0.8
 11
-45.555555555555557
 21
92.944444444444485
 31
0.0
 73
     3
  0
LINE
  5
19F
  8
DIMNSIONS
  6
CONTINUOUS
 62
     7
 10
-19.749999999999961
 20
59.250000000000057
 30
0.0
 11
-19.749999999999961
 21
46.0
 31
0.0
  0
LINE
  5
1A0
  8
DIMNSIONS
  6
CONTINUOUS
 62
     7
 10
19.749999999999979
 20
59.250000000000057
 30
0.0
 11
19.749999999999979
 21
46.0
 31
0.0
  0
LINE
  5
1A1
  8
DIMNSIONS
 62
     7
 10
-19.749999999999961
 20
50.0
 30
0.0
 11
-14.748754882812459
 21
51.340079590300491
 31
0.0
  0
LINE
  5
1A2
  8
DIMNSIONS
 62
     7
 10
-19.749999999999961
 20
50.0
 30
0.0
 11
-14.748754882812459
 21
48.659920409699509
 31
0.0
  0
LINE
  5
1A3
  8
DIMNSIONS
 62
     7
 10
19.749999999999979
 20
50.0
 30
0.0
 11
14.74875488281249
 21
48.659920409699509
 31
0.0
  0
LINE
  5
1A4
  8
DIMNSIONS
 62
     7
 10
19.749999999999979
 20
50.0
 30
0.0
 11
14.74875488281249
 21
51.340079590300491
 31
0.0
  0
LINE
  5
1A5
  8
DIMNSIONS
  6
CONTINUOUS
 62
     7
 10
-19.749999999999961
 20
50.0
 30
0.0
 11
19.749999999999979
 21
50.0
 31
0.0
  0
TEXT
  5
1A6
  8
DIMNSIONS
 62
     7
 10
-7.055555555555542
 20
52.411111111111119
 30
0.0
 40
5.6444444444444439
  1
39.5
 41
0.8
 11
-7.055555555555542
 21
58.055555555555571
 31
0.0
 73
     3
  0
LINE
  5
1A7
  8
DIMNSIONS
  6
CONTINUOUS
 62
     7
 10
200.0
 20
133.99999999999989
 30
0.0
 11
200.0
 21
154.0
 31
0.0
  0
LINE
  5
1A8
  8
DIMNSIONS
  6
CONTINUOUS
 62
     7
 10
180.25
 20
140.74999999999989
 30
0.0
 11
180.25
 21
154.0
 31
0.0
  0
LINE
  5
1A9
  8
DIMNSIONS
 62
     7
 10
200.0
 20
150.0
 30
0.0
 11
194.99875488281251
 21
148.65992040969951
 31
0.0
  0
LINE
  5
1AA
  8
DIMNSIONS
 62
     7
 10
200.0
 20
150.0
 30
0.0
 11
194.99875488281251
 21
151.34007959030041
 31
0.0
  0
LINE
  5
1AB
  8
DIMNSIONS
 62
     7
 10
180.25
 20
150.0
 30
0.0
 11
185.25124511718741
 21
151.34007959030041
 31
0.0
  0
LINE
  5
1AC
  8
DIMNSIONS
 62
     7
 10
180.25
 20
150.0
 30
0.0
 11
185.25124511718741
 21
148.65992040969951
 31
0.0
  0
LINE
  5
1AD
  8
DIMNSIONS
  6
CONTINUOUS
 62
     7
 10
200.0
 20
150.0
 30
0.0
 11
180.25
 21
150.0
 31
0.0
  0
TEXT
  5
1AE
  8
DIMNSIONS
 62
     7
 10
181.30555555555549
 20
152.41111111111101
 30
0.0
 40
5.6444444444444439
  1
19.75
 41
0.8
 11
181.30555555555549
 21
158.05555555555549
 31
0.0
 73
     3
  0
LINE
  5
1AF
  8
DIMNSIONS
  6
CONTINUOUS
 62
     7
 10
219.75
 20
140.74999999999989
 30
0.0
 11
219.75
 21
166.5
 31
0.0
  0
LINE
  5
1B0
  8
DIMNSIONS
  6
CONTINUOUS
 62
     7
 10
180.25
 20
140.74999999999989
 30
0.0
 11
180.25
 21
166.5
 31
0.0
  0
LINE
  5
1B1
  8
DIMNSIONS
 62
     7
 10
219.75
 20
162.5
 30
0.0
 11
214.74875488281239
 21
161.15992040969951
 31
0.0
  0
LINE
  5
1B2
  8
DIMNSIONS
 62
     7
 10
219.75
 20
162.5
 30
0.0
 11
214.74875488281239
 21
163.84007959030041
 31
0.0
  0
LINE
  5
1B3
  8
DIMNSIONS
 62
     7
 10
180.25
 20
162.5
 30
0.0
 11
185.25124511718741
 21
163.84007959030041
 31
0.0
  0
LINE
  5
1B4
  8
DIMNSIONS
 62
     7
 10
180.25
 20
162.5
 30
0.0
 11
185.25124511718741
 21
161.15992040969951
 31
0.0
  0
LINE
  5
1B5
  8
DIMNSIONS
  6
CONTINUOUS
 62
     7
 10
219.75
 20
162.5
 30
0.0
 11
180.25
 21
162.5
 31
0.0
  0
TEXT
  5
1B6
  8
DIMNSIONS
 62
     7
 10
192.9444444444444
 20
164.91111111111101
 30
0.0
 40
5.6444444444444439
  1
39.5
 41
0.8
 11
192.9444444444444
 21
170.55555555555549
 31
0.0
 73
     3
  0
LINE
  5
1B7
  8
DIMNSIONS
  6
CONTINUOUS
 62
     7
 10
204.0
 20
129.99999999999989
 30
0.0
 11
241.5
 21
129.99999999999989
 31
0.0
  0
LINE
  5
1B8
  8
DIMNSIONS
  6
CONTINUOUS
 62
     7
 10
204.0
 20
69.999999999999972
 30
0.0
 11
241.5
 21
69.999999999999972
 31
0.0
  0
LINE
  5
1B9
  8
DIMNSIONS
 62
     7
 10
237.5
 20
129.99999999999989
 30
0.0
 11
238.84007959030049
 21
124.99875488281241
 31
0.0
  0
LINE
  5
1BA
  8
DIMNSIONS
 62
     7
 10
237.5
 20
129.99999999999989
 30
0.0
 11
236.15992040969951
 21
124.99875488281241
 31
0.0
  0
LINE
  5
1BB
  8
DIMNSIONS
 62
     7
 10
237.5
 20
69.999999999999972
 30
0.0
 11
236.15992040969951
 21
75.001245117187452
 31
0.0
  0
LINE
  5
1BC
  8
DIMNSIONS
 62
     7
 10
237.5
 20
69.999999999999972
 30
0.0
 11
238.84007959030049
 21
75.001245117187452
 31
0.0
  0
LINE
  5
1BD
  8
DIMNSIONS
  6
CONTINUOUS
 62
     7
 10
237.5
 20
129.99999999999989
 30
0.0
 11
237.5
 21
69.999999999999972
 31
0.0
  0
TEXT
  5
1BE
  8
DIMNSIONS
 62
     7
 10
235.0888888888889
 20
96.4722222222222
 30
0.0
 40
5.6444444444444439
  1
60
 50
90.0
 41
0.8
 11
229.4444444444444
 21
96.4722222222222
 31
0.0
 73
     3
  0
LINE
  5
1BF
  8
DIMNSIONS
  6
CONTINUOUS
 62
     7
 10
204.0
 20
129.99999999999989
 30
0.0
 11
241.5
 21
129.99999999999989
 31
0.0
  0
LINE
  5
1C0
  8
DIMNSIONS
  6
CONTINUOUS
 62
     7
 10
223.75
 20
136.74999999999989
 30
0.0
 11
241.5
 21
136.74999999999989
 31
0.0
  0
LINE
  5
1C1
  8
DIMNSIONS
  6
CONTINUOUS
 62
     7
 10
237.5
 20
136.74999999999989
 30
0.0
 11
237.5
 21
129.99999999999989
 31
0.0
  0
LINE
  5
1C2
  8
DIMNSIONS
 62
     7
 10
237.5
 20
129.99999999999989
 30
0.0
 11
238.84007959030049
 21
124.99875488281241
 31
0.0
  0
LINE
  5
1C3
  8
DIMNSIONS
 62
     7
 10
237.5
 20
129.99999999999989
 30
0.0
 11
236.15992040969951
 21
124.99875488281241
 31
0.0
  0
LINE
  5
1C4
  8
DIMNSIONS
  6
CONTINUOUS
 62
     7
 10
237.5
 20
129.99999999999989
 30
0.0
 11
237.5
 21
119.9999999999999
 31
0.0
  0
LINE
  5
1C5
  8
DIMNSIONS
 62
     7
 10
237.5
 20
136.74999999999989
 30
0.0
 11
236.15992040969951
 21
141.75124511718741
 31
0.0
  0
LINE
  5
1C6
  8
DIMNSIONS
 62
     7
 10
237.5
 20
136.74999999999989
 30
0.0
 11
238.84007959030049
 21
141.75124511718741
 31
0.0
  0
LINE
  5
1C7
  8
DIMNSIONS
  6
CONTINUOUS
 62
     7
 10
237.5
 20
136.74999999999989
 30
0.0
 11
237.5
 21
157.86111111111109
 31
0.0
  0
TEXT
  5
1C8
  8
DIMNSIONS
 62
     7
 10
235.0888888888889
 20
143.75
 30
0.0
 40
5.6444444444444439
  1
6.75
 50
90.0
 41
0.8
 11
229.4444444444444
 21
143.75
 31
0.0
 73
     3
  0
LINE
  5
1C9
  8
DIMNSIONS
  6
CONTINUOUS
 62
     7
 10
223.75
 20
63.25
 30
0.0
 11
254.0
 21
63.25
 31
0.0
  0
LINE
  5
1CA
  8
DIMNSIONS
  6
CONTINUOUS
 62
     7
 10
226.15000000000001
 20
136.74999999999989
 30
0.0
 11
254.0
 21
136.74999999999989
 31
0.0
  0
LINE
  5
1CB
  8
DIMNSIONS
 62
     7
 10
250.0
 20
63.25
 30
0.0
 11
248.65992040969951
 21
68.251245117187494
 31
0.0
  0
LINE
  5
1CC
  8
DIMNSIONS
 62
     7
 10
250.0
 20
63.25
 30
0.0
 11
251.34007959030049
 21
68.251245117187494
 31
0.0
  0
LINE
  5
1CD
  8
DIMNSIONS
 62
     7
 10
250.0
 20
136.74999999999989
 30
0.0
 11
251.34007959030049
 21
131.74875488281251
 31
0.0
  0
LINE
  5
1CE
  8
DIMNSIONS
 62
     7
 10
250.0
 20
136.74999999999989
 30
0.0
 11
248.65992040969951
 21
131.74875488281251
 31
0.0
  0
LINE
  5
1CF
  8
DIMNSIONS
  6
CONTINUOUS
 62
     7
 10
250.0
 20
63.25
 30
0.0
 11
250.0
 21
136.74999999999989
 31
0.0
  0
TEXT
  5
1D0
  8
DIMNSIONS
 62
     7
 10
247.5888888888889
 20
92.944444444444443
 30
0.0
 40
5.6444444444444439
  1
73.5
 50
90.0
 41
0.8
 11
241.9444444444444
 21
92.944444444444443
 31
0.0
 73
     3
  0
LINE
  5
1D1
  8
DIMNSIONS
 62
     7
 10
200.7875097928403
 20
66.69245887007088
 30
0.0
 11
203.21827859220221
 21
62.120847657972853
 31
0.0
  0
LINE
  5
1D2
  8
DIMNSIONS
 62
     7
 10
200.7875097928403
 20
66.69245887007088
 30
0.0
 11
200.60681171776531
 21
61.51794302448728
 31
0.0
  0
LINE
  5
1D3
  8
DIMNSIONS
  6
CONTINUOUS
 62
     7
 10
200.7875097928403
 20
66.69245887007088
 30
0.0
 11
206.25
 21
43.75
 31
0.0
  0
LINE
  5
1D4
  8
DIMNSIONS
  6
CONTINUOUS
 62
     7
 10
206.25
 20
43.75
 30
0.0
 11
242.9444444444444
 21
43.75
 31
0.0
  0
TEXT
  5
1D5
  8
DIMNSIONS
 62
     7
 10
218.25
 20
46.161111111111119
 30
0.0
 40
5.6444444444444439
  1
2-φ6.8
 41
0.8
 11
218.25
 21
51.805555555555571
 31
0.0
 73
     3
  0
TEXT
  5
1D6
  8
DATA
 62
     7
 10
200.0
 20
-79.325404999999975
 30
0.0
 40
5.0800000000000001
  1
JBL
 41
0.8
 11
200.0
 21
-74.245404999999977
 31
0.0
 73
     3
  0
TEXT
  5
1D7
  8
DATA
 62
     7
 10
-60.0
 20
-107.7381849999999
 30
0.0
 40
3.3866666666666658
  1
仕様および外観は予告なく変更されることがありますので、ご了承ください。
 41
0.8
 11
-60.0
 21
-104.3515183333333
 31
0.0
 73
     3
  0
LINE
  5
1D8
  8
DATA
  6
CONTINUOUS
 62
     7
 10
149.995
 20
149.995
 30
0.0
 11
100.0
 21
100.0
 31
0.0
  0
LINE
  5
1D9
  8
DATA
  6
CONTINUOUS
 62
     7
 10
149.995
 20
100.0
 30
0.0
 11
100.0
 21
50.005000000000017
 31
0.0
  0
LINE
  5
1DA
  8
DATA
  6
CONTINUOUS
 62
     7
 10
116.66500000000011
 20
100.0
 30
0.0
 11
100.0
 21
83.334999999999994
 31
0.0
  0
LINE
  5
1DB
  8
DATA
  6
CONTINUOUS
 62
     7
 10
116.66499999999991
 20
83.335000000000093
 30
0.0
 11
100.0
 21
66.670000000000016
 31
0.0
  0
LINE
  5
1DC
  8
DATA
  6
CONTINUOUS
 62
     7
 10
133.3300000000001
 20
149.995
 30
0.0
 11
100.0
 21
116.66500000000001
 31
0.0
  0
LINE
  5
1DD
  8
DATA
  6
CONTINUOUS
 62
     7
 10
116.66500000000011
 20
149.995
 30
0.0
 11
100.0
 21
133.3299999999999
 31
0.0
  0
LINE
  5
1DE
  8
DATA
  6
CONTINUOUS
 62
     7
 10
-12.49999999999995
 20
6.25
 30
0.0
 11
37.500000000000028
 21
6.25
 31
0.0
  0
LINE
  5
1DF
  8
DATA
  6
CONTINUOUS
 62
     7
 10
37.500000000000028
 20
-6.25
 30
0.0
 11
-12.49999999999995
 21
-6.25
 31
0.0
  0
ARC
  5
1E0
  8
DATA
  6
CONTINUOUS
 62
     7
 10
-0.0000000000000142
 20
69.500000000000142
 30
0.0
 40
9.75
 50
0.0
 51
180.0
  0
LINE
  5
1E1
  8
DATA
  6
CONTINUOUS
 62
     7
 10
19.749999999999979
 20
63.250000000000057
 30
0.0
 11
-19.749999999999961
 21
63.250000000000057
 31
0.0
  0
LINE
  5
1E2
  8
DATA
  6
CONTINUOUS
 62
     7
 10
-19.750000000000071
 20
136.75
 30
0.0
 11
19.749999999999869
 21
136.75
 31
0.0
  0
ARC
  5
1E3
  8
DATA
  6
CONTINUOUS
 62
     7
 10
-0.0000000000000142
 20
130.49999999999989
 30
0.0
 40
9.7499999999999432
 50
180.0
 51
0.0
  0
CIRCLE
  5
1E4
  8
DATA
  6
CONTINUOUS
 62
     7
 10
-0.0000000000000142
 20
100.0
 30
0.0
 40
11.100000000000019
  0
LINE
  5
1E5
  8
DATA
  6
CONTINUOUS
 62
     7
 10
-12.49999874999998
 20
25.000000000000028
 30
0.0
 11
12.49999875000001
 21
25.000000000000028
 31
0.0
  0
TEXT
  5
1E6
  8
DATA
 62
     7
 10
-1.334710707207605
 20
-3.0
 30
0.0
 40
5.15625
  1
壁　取付図
 41
0.8
 11
-1.334710707207605
 21
2.15625
 31
0.0
 73
     3
  0
TEXT
  5
1E7
  8
DATA
 62
     7
 10
-6.3894623392969399
 20
29.166666249999992
 30
0.0
 40
5.7291660937499991
  1
正面
 41
0.8
 11
-6.3894623392969399
 21
34.895832343749987
 31
0.0
 73
     3
  0
LINE
  5
1E8
  8
DATA
  6
CONTINUOUS
 62
     7
 10
-12.49999999999995
 20
-6.25
 30
0.0
 11
-12.49999999999995
 21
6.25
 31
0.0
  0
LINE
  5
1E9
  8
DATA
  6
CONTINUOUS
 62
     7
 10
-19.749999999999961
 20
63.250000000000057
 30
0.0
 11
-19.750000000000071
 21
136.75
 31
0.0
  0
LINE
  5
1EA
  8
DATA
  6
CONTINUOUS
 62
     7
 10
-9.7499999999999556
 20
63.250000000000057
 30
0.0
 11
-9.7499999999999556
 21
69.500000000000142
 31
0.0
  0
CIRCLE
  5
1EB
  8
DATA
  6
CONTINUOUS
 62
     7
 10
-0.0000000000000142
 20
70.000000000000099
 30
0.0
 40
3.4000000000000341
  0
LINE
  5
1EC
  8
DATA
  6
CONTINUOUS
 62
     7
 10
-9.7499999999999556
 20
136.74999999999989
 30
0.0
 11
-9.7499999999999556
 21
130.49999999999989
 31
0.0
  0
CIRCLE
  5
1ED
  8
DATA
  6
CONTINUOUS
 62
     7
 10
-0.0000000000000142
 20
129.99999999999989
 30
0.0
 40
3.4000000000000341
  0
LINE
  5
1EE
  8
DATA
  6
CONTINUOUS
 62
     7
 10
37.500000000000028
 20
6.25
 30
0.0
 11
37.500000000000028
 21
-6.25
 31
0.0
  0
ARC
  5
1EF
  8
DATA
  6
CONTINUOUS
 62
     7
 10
59.099999999999888
 20
100.0
 30
0.0
 40
11.099999999999969
 50
16.21719456321722
 51
343.78280543678409
  0
LINE
  5
1F0
  8
DATA
  6
CONTINUOUS
 62
     7
 10
19.749999999999869
 20
136.75
 30
0.0
 11
19.749999999999979
 21
63.250000000000057
 31
0.0
  0
LINE
  5
1F1
  8
DATA
  6
CONTINUOUS
 62
     7
 10
9.749999999999984
 20
63.250000000000057
 30
0.0
 11
9.749999999999984
 21
69.500000000000142
 31
0.0
  0
LINE
  5
1F2
  8
DATA
  6
CONTINUOUS
 62
     7
 10
9.749999999999984
 20
136.74999999999989
 30
0.0
 11
9.749999999999984
 21
130.49999999999989
 31
0.0
  0
LINE
  5
1F3
  8
DATA
  6
CONTINUOUS
 62
     7
 10
90.500000000000043
 20
120.3676339050854
 30
0.0
 11
90.499999999999943
 21
79.6323660949149
 31
0.0
  0
LINE
  5
1F4
  8
DATA
  6
CONTINUOUS
 62
     7
 10
82.600000000000037
 20
104.8497422611927
 30
0.0
 11
82.600000000000037
 21
95.15025773880717
 31
0.0
  0
LINE
  5
1F5
  8
DATA
  6
CONTINUOUS
 62
     7
 10
88.700000000000017
 20
107.4999999999999
 30
0.0
 11
88.700000000000017
 21
92.499999999999943
 31
0.0
  0
LINE
  5
1F6
  8
DATA
  6
CONTINUOUS
 62
     7
 10
87.40000000000019
 20
105.39999999999991
 30
0.0
 11
87.400000000000077
 21
94.600000000000037
 31
0.0
  0
LINE
  5
1F7
  8
DATA
  6
CONTINUOUS
 62
     7
 10
69.75833007557921
 20
103.10000000000009
 30
0.0
 11
69.758330075579352
 21
96.900000000000134
 31
0.0
  0
LINE
  5
1F8
  8
DATA
  6
CONTINUOUS
 62
     7
 10
100.0
 20
136.74999999999989
 30
0.0
 11
100.0
 21
63.249999999999929
 31
0.0
  0
LINE
  5
1F9
  8
DATA
  6
CONTINUOUS
 62
     7
 10
97.199999999999974
 20
136.74999999999989
 30
0.0
 11
97.199999999999974
 21
63.249999999999929
 31
0.0
  0
LINE
  5
1FA
  8
DATA
  6
CONTINUOUS
 62
     7
 10
100.0
 20
149.995
 30
0.0
 11
100.0
 21
50.005000000000017
 31
0.0
  0
LINE
  5
1FB
  8
DATA
  6
CONTINUOUS
 62
     7
 10
91.999999999999986
 20
63.249999999999929
 30
0.0
 11
100.0
 21
63.249999999999929
 31
0.0
  0
LINE
  5
1FC
  8
DATA
  6
CONTINUOUS
 62
     7
 10
90.558141511746925
 20
78.872080173645145
 30
0.0
 11
91.941858488253104
 21
69.877919826354415
 31
0.0
  0
LINE
  5
1FD
  8
DATA
  6
CONTINUOUS
 62
     7
 10
92.000000000000085
 20
69.117633905084659
 30
0.0
 11
91.999999999999986
 21
63.249999999999929
 31
0.0
  0
ARC
  5
1FE
  8
DATA
  6
CONTINUOUS
 62
     7
 10
87.000000000000114
 20
69.117633905084659
 30
0.0
 40
5.0
 50
0.0
 51
8.7461622625553446
  0
ARC
  5
1FF
  8
DATA
  6
CONTINUOUS
 62
     7
 10
95.499999999999943
 20
79.6323660949149
 30
0.0
 40
5.0
 50
180.0
 51
188.74616226255549
  0
TEXT
  5
200
  8
DATA
 62
     7
 10
68.610537660703002
 20
29.166666249999992
 30
0.0
 40
5.7291660937499991
  1
側面
 41
0.8
 11
68.610537660703002
 21
34.895832343749987
 31
0.0
 73
     3
  0
LINE
  5
201
  8
DATA
  6
CONTINUOUS
 62
     7
 10
62.500001250000011
 20
25.000000000000028
 30
0.0
 11
87.499998750000017
 21
25.000000000000028
 31
0.0
  0
LINE
  5
202
  8
DATA
  6
CONTINUOUS
 62
     7
 10
69.758330075579352
 20
96.900000000000134
 30
0.0
 11
82.600000000000037
 21
96.900000000000134
 31
0.0
  0
LINE
  5
203
  8
DATA
  6
CONTINUOUS
 62
     7
 10
82.600000000000037
 20
95.15025773880717
 30
0.0
 11
87.400000000000077
 21
95.15025773880717
 31
0.0
  0
LINE
  5
204
  8
DATA
  6
CONTINUOUS
 62
     7
 10
88.700000000000017
 20
92.500000000000156
 30
0.0
 11
90.499999999999943
 21
92.500000000000156
 31
0.0
  0
LINE
  5
205
  8
DATA
  6
CONTINUOUS
 62
     7
 10
87.400000000000077
 20
97.000000000000085
 30
0.0
 11
88.700000000000131
 21
97.0
 31
0.0
  0
LINE
  5
206
  8
DATA
  6
CONTINUOUS
 62
     7
 10
87.400000000000077
 20
94.600000000000136
 30
0.0
 11
88.700000000000017
 21
94.600000000000136
 31
0.0
  0
LINE
  5
207
  8
DATA
  6
CONTINUOUS
 62
     7
 10
91.999999999999986
 20
136.74999999999989
 30
0.0
 11
100.0
 21
136.74999999999989
 31
0.0
  0
LINE
  5
208
  8
DATA
  6
CONTINUOUS
 62
     7
 10
69.75833007557921
 20
103.10000000000009
 30
0.0
 11
82.600000000000037
 21
103.10000000000009
 31
0.0
  0
LINE
  5
209
  8
DATA
  6
CONTINUOUS
 62
     7
 10
91.999999999999986
 20
136.74999999999989
 30
0.0
 11
92.000000000000085
 21
130.88236609491511
 31
0.0
  0
ARC
  5
20A
  8
DATA
  6
CONTINUOUS
 62
     7
 10
87.000000000000114
 20
130.88236609491511
 30
0.0
 40
4.9999999999999618
 50
351.2538377374446
 51
0.0
  0
LINE
  5
20B
  8
DATA
  6
CONTINUOUS
 62
     7
 10
91.941858488253104
 20
130.1220801736454
 30
0.0
 11
90.558141511746925
 21
121.1279198263551
 31
0.0
  0
ARC
  5
20C
  8
DATA
  6
CONTINUOUS
 62
     7
 10
95.500000000000043
 20
120.3676339050854
 30
0.0
 40
5.0000000000000142
 50
171.253837737445
 51
180.0
  0
LINE
  5
20D
  8
DATA
  6
CONTINUOUS
 62
     7
 10
82.600000000000037
 20
104.8497422611927
 30
0.0
 11
87.400000000000077
 21
104.8497422611927
 31
0.0
  0
LINE
  5
20E
  8
DATA
  6
CONTINUOUS
 62
     7
 10
82.600000000000037
 20
100.0
 30
0.0
 11
87.400000000000077
 21
100.0
 31
0.0
  0
LINE
  5
20F
  8
DATA
  6
CONTINUOUS
 62
     7
 10
88.700000000000017
 20
107.5000000000001
 30
0.0
 11
90.500000000000043
 21
107.5000000000001
 31
0.0
  0
LINE
  5
210
  8
DATA
  6
CONTINUOUS
 62
     7
 10
87.40000000000019
 20
105.40000000000001
 30
0.0
 11
88.700000000000131
 21
105.40000000000001
 31
0.0
  0
LINE
  5
211
  8
DATA
  6
CONTINUOUS
 62
     7
 10
-19.750000000000011
 20
250.0
 30
0.0
 11
19.749999999999979
 21
250.0
 31
0.0
  0
ARC
  5
212
  8
DATA
  6
CONTINUOUS
 62
     7
 10
0.0000000000000426
 20
272.22686567164283
 30
0.0
 40
31.72686567164261
 50
232.07560857082251
 51
307.92439142917749
  0
LINE
  5
213
  8
DATA
  6
CONTINUOUS
 62
     7
 10
-9.7500000000000142
 20
245.59999999999999
 30
0.0
 11
9.7499999999999272
 21
245.59999999999999
 31
0.0
  0
LINE
  5
214
  8
DATA
  6
CONTINUOUS
 62
     7
 10
-49.999950000000013
 20
250.0
 30
0.0
 11
49.999949999999998
 21
250.0
 31
0.0
  0
LINE
  5
215
  8
DATA
  6
CONTINUOUS
 62
     7
 10
-12.49999874999998
 20
175.0
 30
0.0
 11
12.49999875000001
 21
175.0
 31
0.0
  0
ARC
  5
216
  8
DATA
  6
CONTINUOUS
 62
     7
 10
0.0000000000000426
 20
209.09999999999999
 30
0.0
 40
11.10000000000001
 50
106.2171945632188
 51
73.782805436783846
  0
LINE
  5
217
  8
DATA
  6
CONTINUOUS
 62
     7
 10
-0.0000000000000142
 20
299.99995000000001
 30
0.0
 11
49.999949999999998
 21
250.0
 31
0.0
  0
TEXT
  5
218
  8
DATA
 62
     7
 10
-6.3894623392969399
 20
179.16666624999999
 30
0.0
 40
5.7291660937499991
  1
上面
 41
0.8
 11
-6.3894623392969399
 21
184.89583234374999
 31
0.0
 73
     3
  0
LINE
  5
219
  8
DATA
  6
CONTINUOUS
 62
     7
 10
-0.0000000000000142
 20
266.66665000000012
 30
0.0
 11
16.66664999999999
 21
250.0
 31
0.0
  0
LINE
  5
21A
  8
DATA
  6
CONTINUOUS
 62
     7
 10
-7.5000000000000142
 20
238.69999999999999
 30
0.0
 11
7.4999999999999867
 21
238.69999999999999
 31
0.0
  0
LINE
  5
21B
  8
DATA
  6
CONTINUOUS
 62
     7
 10
-5.3999999999999924
 20
237.40000000000009
 30
0.0
 11
5.3999999999999631
 21
237.40000000000001
 31
0.0
  0
LINE
  5
21C
  8
DATA
  6
CONTINUOUS
 62
     7
 10
-49.999950000000013
 20
299.99995000000001
 30
0.0
 11
-0.0000000000000142
 21
250.0
 31
0.0
  0
LINE
  5
21D
  8
DATA
  6
CONTINUOUS
 62
     7
 10
-49.999950000000013
 20
283.33330000000001
 30
0.0
 11
-16.666650000000011
 21
250.0
 31
0.0
  0
LINE
  5
21E
  8
DATA
  6
CONTINUOUS
 62
     7
 10
-49.999950000000013
 20
266.66665000000012
 30
0.0
 11
-33.333300000000023
 21
250.0
 31
0.0
  0
LINE
  5
21F
  8
DATA
  6
CONTINUOUS
 62
     7
 10
-9.7500000000000142
 20
242.03528563106761
 30
0.0
 11
-9.7500000000000142
 21
245.59999999999999
 31
0.0
  0
LINE
  5
220
  8
DATA
  6
CONTINUOUS
 62
     7
 10
-3.100000000000434
 20
232.60000000000011
 30
0.0
 11
-3.100000000000378
 21
219.75833007557929
 31
0.0
  0
LINE
  5
221
  8
DATA
  6
CONTINUOUS
 62
     7
 10
3.0999999999999521
 20
219.75833007557941
 30
0.0
 11
3.0999999999999521
 21
232.59999999999999
 31
0.0
  0
LINE
  5
222
  8
DATA
  6
CONTINUOUS
 62
     7
 10
-3.100000000000378
 20
219.75833007557929
 30
0.0
 11
3.0999999999999521
 21
219.75833007557941
 31
0.0
  0
LINE
  5
223
  8
DATA
  6
CONTINUOUS
 62
     7
 10
-4.8497422611927874
 20
232.59999999999999
 30
0.0
 11
-4.8497422611927874
 21
237.40000000000001
 31
0.0
  0
LINE
  5
224
  8
DATA
  6
CONTINUOUS
 62
     7
 10
4.8497422611927581
 20
232.59999999999999
 30
0.0
 11
4.8497422611928149
 21
237.40000000000001
 31
0.0
  0
LINE
  5
225
  8
DATA
  6
CONTINUOUS
 62
     7
 10
-0.0000000000000142
 20
232.59999999999999
 30
0.0
 11
-0.0000000000000142
 21
237.40000000000001
 31
0.0
  0
LINE
  5
226
  8
DATA
  6
CONTINUOUS
 62
     7
 10
-4.8497422611927874
 20
232.59999999999999
 30
0.0
 11
4.8497422611927581
 21
232.59999999999999
 31
0.0
  0
LINE
  5
227
  8
DATA
  6
CONTINUOUS
 62
     7
 10
-7.500000000000183
 20
238.69999999999999
 30
0.0
 11
-7.500000000000183
 21
241.39921565827891
 31
0.0
  0
LINE
  5
228
  8
DATA
  6
CONTINUOUS
 62
     7
 10
-5.4000000000001052
 20
237.40000000000009
 30
0.0
 11
-5.4000000000001052
 21
238.7000000000001
 31
0.0
  0
LINE
  5
229
  8
DATA
  6
CONTINUOUS
 62
     7
 10
2.9999999999998721
 20
237.40000000000009
 30
0.0
 11
2.9999999999999849
 21
238.7000000000001
 31
0.0
  0
LINE
  5
22A
  8
DATA
  6
CONTINUOUS
 62
     7
 10
-16.666650000000011
 20
299.99995000000001
 30
0.0
 11
-0.0000000000000711
 21
283.33330000000001
 31
0.0
  0
LINE
  5
22B
  8
DATA
  6
CONTINUOUS
 62
     7
 10
-19.500000000000011
 20
247.19999999999999
 30
0.0
 11
-19.750000000000011
 21
250.0
 31
0.0
  0
LINE
  5
22C
  8
DATA
  6
CONTINUOUS
 62
     7
 10
-33.333299999999909
 20
299.99995000000001
 30
0.0
 11
-16.666650000000011
 21
283.33330000000001
 31
0.0
  0
TEXT
  5
22D
  8
DATA
 62
     7
 10
-3.3004615881168462
 20
271.66664500000002
 30
0.0
 40
5.7291609374999979
  1
壁
 41
0.8
 11
-3.3004615881168462
 21
277.39580593749997
 31
0.0
 73
     3
  0
LINE
  5
22E
  8
DATA
  6
CONTINUOUS
 62
     7
 10
7.4999999999998721
 20
238.69999999999999
 30
0.0
 11
7.4999999999998721
 21
241.39921565827879
 31
0.0
  0
LINE
  5
22F
  8
DATA
  6
CONTINUOUS
 62
     7
 10
5.3999999999997916
 20
237.40000000000001
 30
0.0
 11
5.3999999999998494
 21
238.69999999999999
 31
0.0
  0
LINE
  5
230
  8
DATA
  6
CONTINUOUS
 62
     7
 10
9.7499999999999272
 20
242.03528563106761
 30
0.0
 11
9.7499999999999272
 21
245.59999999999999
 31
0.0
  0
LINE
  5
231
  8
DATA
  6
CONTINUOUS
 62
     7
 10
16.66664999999999
 20
299.99995000000001
 30
0.0
 11
49.999949999999998
 21
266.66665000000012
 31
0.0
  0
LINE
  5
232
  8
DATA
  6
CONTINUOUS
 62
     7
 10
33.333299999999987
 20
299.99995000000001
 30
0.0
 11
49.999949999999892
 21
283.33330000000001
 31
0.0
  0
LINE
  5
233
  8
DATA
  6
CONTINUOUS
 62
     7
 10
16.66664999999999
 20
266.66664999999989
 30
0.0
 11
33.333299999999987
 21
250.0
 31
0.0
  0
LINE
  5
234
  8
DATA
  6
CONTINUOUS
 62
     7
 10
19.500000000000089
 20
247.19999999999999
 30
0.0
 11
19.749999999999979
 21
250.0
 31
0.0
  0
LINE
  5
235
  8
DATA
  6
CONTINUOUS
 62
     7
 10
219.75
 20
63.25
 30
0.0
 11
180.25
 21
63.249999999999929
 31
0.0
  0
LINE
  5
236
  8
DATA
  6
CONTINUOUS
 62
     7
 10
180.25
 20
136.74999999999989
 30
0.0
 11
219.75
 21
136.74999999999989
 31
0.0
  0
LINE
  5
237
  8
DATA
  6
CONTINUOUS
 62
     7
 10
213.75
 20
66.550000000000182
 30
0.0
 11
215.44999999999999
 21
66.550000000000182
 31
0.0
  0
LINE
  5
238
  8
DATA
  6
CONTINUOUS
 62
     7
 10
213.75
 20
133.44999999999999
 30
0.0
 11
215.44999999999999
 21
133.44999999999999
 31
0.0
  0
LINE
  5
239
  8
DATA
  6
CONTINUOUS
 62
     7
 10
212.22661032339141
 20
101.59999999999999
 30
0.0
 11
215.44999999999999
 21
101.59999999999999
 31
0.0
  0
LINE
  5
23A
  8
DATA
  6
CONTINUOUS
 62
     7
 10
212.22661032339019
 20
98.400000000000006
 30
0.0
 11
215.44999999999999
 21
98.39999999999992
 31
0.0
  0
TEXT
  5
23B
  8
DATA
 62
     7
 10
121.6973651579071
 20
96.667000000000044
 30
0.0
 40
5.7285937499999999
  1
壁
 41
0.8
 11
121.6973651579071
 21
102.39559375
 31
0.0
 73
     3
  0
LINE
  5
23C
  8
DATA
  6
CONTINUOUS
 62
     7
 10
149.995
 20
83.334999999999908
 30
0.0
 11
116.66500000000011
 21
50.005000000000017
 31
0.0
  0
LINE
  5
23D
  8
DATA
  6
CONTINUOUS
 62
     7
 10
149.995
 20
66.670000000000016
 30
0.0
 11
133.3300000000001
 21
50.005000000000017
 31
0.0
  0
LINE
  5
23E
  8
DATA
  6
CONTINUOUS
 62
     7
 10
149.995
 20
133.3299999999999
 30
0.0
 11
133.3300000000001
 21
116.66500000000001
 31
0.0
  0
LINE
  5
23F
  8
DATA
  6
CONTINUOUS
 62
     7
 10
149.995
 20
116.66500000000001
 30
0.0
 11
133.3300000000001
 21
100.0000000000001
 31
0.0
  0
CIRCLE
  5
240
  8
DATA
  6
CONTINUOUS
 62
     7
 10
200.0
 20
100.0
 30
0.0
 40
8.2250000000000227
  0
CIRCLE
  5
241
  8
DATA
  6
CONTINUOUS
 62
     7
 10
200.0
 20
100.0
 30
0.0
 40
3.1000000000000218
  0
LINE
  5
242
  8
DATA
  6
CONTINUOUS
 62
     7
 10
180.25
 20
63.249999999999929
 30
0.0
 11
180.25
 21
136.74999999999989
 31
0.0
  0
ARC
  5
243
  8
DATA
  6
CONTINUOUS
 62
     7
 10
184.55000000000001
 20
97.399999999999864
 30
0.0
 40
1.0
 50
90.0
 51
180.0
  0
ARC
  5
244
  8
DATA
  6
CONTINUOUS
 62
     7
 10
187.7733896766099
 20
97.399999999999963
 30
0.0
 40
1.0000000000000611
 50
12.00517283075126
 51
90.0
  0
LINE
  5
245
  8
DATA
  6
CONTINUOUS
 62
     7
 10
194.40000000000001
 20
100.0
 30
0.0
 11
197.19999999999999
 21
95.15025773880717
 31
0.0
  0
LINE
  5
246
  8
DATA
  6
CONTINUOUS
 62
     7
 10
202.80000000000001
 20
95.150257738807042
 30
0.0
 11
205.59999999999991
 21
100.0
 31
0.0
  0
ARC
  5
247
  8
DATA
  6
CONTINUOUS
 62
     7
 10
212.22661032338999
 20
97.400000000000006
 30
0.0
 40
1.0
 50
89.999999999993506
 51
167.9948271692474
  0
CIRCLE
  5
248
  8
DATA
  6
CONTINUOUS
 62
     7
 10
200.0
 20
69.999999999999972
 30
0.0
 40
3.3999999999999768
  0
ARC
  5
249
  8
DATA
  6
CONTINUOUS
 62
     7
 10
202.59999999999991
 20
83.501944304430936
 30
0.0
 40
1.0
 50
180.0
 51
259.10026454590638
  0
ARC
  5
24A
  8
DATA
  6
CONTINUOUS
 62
     7
 10
202.59999999999991
 20
87.773389676609312
 30
0.0
 40
1.0000000000000051
 50
102.0051728307519
 51
180.0
  0
LINE
  5
24B
  8
DATA
  6
CONTINUOUS
 62
     7
 10
197.19999999999999
 20
95.15025773880717
 30
0.0
 11
202.80000000000001
 21
95.150257738807042
 31
0.0
  0
LINE
  5
24C
  8
DATA
  6
CONTINUOUS
 62
     7
 10
187.50000125
 20
25.000000000000028
 30
0.0
 11
212.49999875
 21
25.000000000000028
 31
0.0
  0
TEXT
  5
24D
  8
DATA
 62
     7
 10
193.61053766070299
 20
29.166666249999992
 30
0.0
 40
5.7291660937499991
  1
裏面
 41
0.8
 11
193.61053766070299
 21
34.895832343749987
 31
0.0
 73
     3
  0
LINE
  5
24E
  8
DATA
  6
CONTINUOUS
 62
     7
 10
183.55000000000001
 20
97.399999999999864
 30
0.0
 11
183.55000000000001
 21
67.550000000000011
 31
0.0
  0
LINE
  5
24F
  8
DATA
  6
CONTINUOUS
 62
     7
 10
198.40000000000001
 20
87.773389676609256
 30
0.0
 11
198.40000000000001
 21
83.501944304431944
 31
0.0
  0
LINE
  5
250
  8
DATA
  6
CONTINUOUS
 62
     7
 10
201.59999999999991
 20
87.773389676609312
 30
0.0
 11
201.59999999999991
 21
83.501944304430936
 31
0.0
  0
ARC
  5
251
  8
DATA
  6
CONTINUOUS
 62
     7
 10
200.0
 20
70.000000000000099
 30
0.0
 40
12.75
 50
100.8997354540906
 51
180.0
  0
ARC
  5
252
  8
DATA
  6
CONTINUOUS
 62
     7
 10
186.25
 20
67.550000000000011
 30
0.0
 40
1.0
 50
270.0
 51
0.0000000000016485
  0
LINE
  5
253
  8
DATA
  6
CONTINUOUS
 62
     7
 10
184.55000000000001
 20
66.550000000000011
 30
0.0
 11
186.25
 21
66.550000000000011
 31
0.0
  0
ARC
  5
254
  8
DATA
  6
CONTINUOUS
 62
     7
 10
184.55000000000001
 20
67.550000000000011
 30
0.0
 40
1.0
 50
180.0
 51
270.0
  0
LINE
  5
255
  8
DATA
  6
CONTINUOUS
 62
     7
 10
187.25
 20
67.550000000000011
 30
0.0
 11
187.25
 21
70.000000000000099
 31
0.0
  0
ARC
  5
256
  8
DATA
  6
CONTINUOUS
 62
     7
 10
197.40000000000001
 20
83.501944304431944
 30
0.0
 40
1.0
 50
280.8997354540935
 51
0.0
  0
ARC
  5
257
  8
DATA
  6
CONTINUOUS
 62
     7
 10
200.0
 20
100.0
 30
0.0
 40
11.500000000000069
 50
192.0051728307528
 51
257.99482716924763
  0
ARC
  5
258
  8
DATA
  6
CONTINUOUS
 62
     7
 10
197.40000000000001
 20
87.773389676609312
 30
0.0
 40
1.0
 50
0.0
 51
77.994827169248083
  0
ARC
  5
259
  8
DATA
  6
CONTINUOUS
 62
     7
 10
200.0
 20
70.000000000000099
 30
0.0
 40
12.75
 50
0.0
 51
79.100264545908828
  0
ARC
  5
25A
  8
DATA
  6
CONTINUOUS
 62
     7
 10
213.75
 20
67.550000000000182
 30
0.0
 40
1.0
 50
180.0
 51
270.0
  0
LINE
  5
25B
  8
DATA
  6
CONTINUOUS
 62
     7
 10
212.74999999999989
 20
67.550000000000182
 30
0.0
 11
212.74999999999989
 21
70.000000000000142
 31
0.0
  0
ARC
  5
25C
  8
DATA
  6
CONTINUOUS
 62
     7
 10
200.0
 20
100.0
 30
0.0
 40
11.49999999999997
 50
282.00517283075169
 51
347.99482716924717
  0
CIRCLE
  5
25D
  8
DATA
  6
CONTINUOUS
 62
     7
 10
200.0
 20
129.99999999999989
 30
0.0
 40
3.3999999999999768
  0
ARC
  5
25E
  8
DATA
  6
CONTINUOUS
 62
     7
 10
202.59999999999991
 20
116.4980556955644
 30
0.0
 40
1.000000000000006
 50
100.89973545408679
 51
180.0
  0
ARC
  5
25F
  8
DATA
  6
CONTINUOUS
 62
     7
 10
202.59999999999991
 20
112.22661032338721
 30
0.0
 40
1.0
 50
180.0
 51
257.99482716924763
  0
LINE
  5
260
  8
DATA
  6
CONTINUOUS
 62
     7
 10
202.80000000000001
 20
104.8497422611928
 30
0.0
 11
197.19999999999999
 21
104.8497422611927
 31
0.0
  0
ARC
  5
261
  8
DATA
  6
CONTINUOUS
 62
     7
 10
200.0
 20
129.99999999999989
 30
0.0
 40
12.75
 50
180.0
 51
259.10026454591087
  0
ARC
  5
262
  8
DATA
  6
CONTINUOUS
 62
     7
 10
200.0
 20
100.0
 30
0.0
 40
11.5
 50
102.0051728307517
 51
167.99482716924649
  0
LINE
  5
263
  8
DATA
  6
CONTINUOUS
 62
     7
 10
187.7733896766099
 20
98.399999999999963
 30
0.0
 11
184.55000000000001
 21
98.399999999999864
 31
0.0
  0
LINE
  5
264
  8
DATA
  6
CONTINUOUS
 62
     7
 10
187.7733896766108
 20
101.59999999999989
 30
0.0
 11
184.55000000000001
 21
101.59999999999989
 31
0.0
  0
ARC
  5
265
  8
DATA
  6
CONTINUOUS
 62
     7
 10
186.25
 20
132.44999999999999
 30
0.0
 40
1.0
 50
0.0
 51
90.0
  0
LINE
  5
266
  8
DATA
  6
CONTINUOUS
 62
     7
 10
183.55000000000001
 20
132.44999999999999
 30
0.0
 11
183.55000000000001
 21
102.59999999999989
 31
0.0
  0
ARC
  5
267
  8
DATA
  6
CONTINUOUS
 62
     7
 10
184.55000000000001
 20
132.44999999999999
 30
0.0
 40
1.0
 50
90.0
 51
180.0
  0
LINE
  5
268
  8
DATA
  6
CONTINUOUS
 62
     7
 10
184.55000000000001
 20
133.44999999999999
 30
0.0
 11
186.25
 21
133.44999999999999
 31
0.0
  0
ARC
  5
269
  8
DATA
  6
CONTINUOUS
 62
     7
 10
184.55000000000001
 20
102.59999999999989
 30
0.0
 40
1.0
 50
180.0
 51
270.0
  0
LINE
  5
26A
  8
DATA
  6
CONTINUOUS
 62
     7
 10
187.25
 20
132.44999999999999
 30
0.0
 11
187.25
 21
129.99999999999989
 31
0.0
  0
ARC
  5
26B
  8
DATA
  6
CONTINUOUS
 62
     7
 10
187.7733896766108
 20
102.59999999999989
 30
0.0
 40
1.0
 50
270.0
 51
347.99482716924717
  0
LINE
  5
26C
  8
DATA
  6
CONTINUOUS
 62
     7
 10
198.40000000000001
 20
116.4980556955655
 30
0.0
 11
198.40000000000001
 21
112.2266103233906
 31
0.0
  0
LINE
  5
26D
  8
DATA
  6
CONTINUOUS
 62
     7
 10
201.59999999999991
 20
116.4980556955644
 30
0.0
 11
201.59999999999999
 21
112.22661032338721
 31
0.0
  0
ARC
  5
26E
  8
DATA
  6
CONTINUOUS
 62
     7
 10
197.40000000000001
 20
116.4980556955655
 30
0.0
 40
1.0
 50
0.0
 51
79.100264545906484
  0
LINE
  5
26F
  8
DATA
  6
CONTINUOUS
 62
     7
 10
197.19999999999999
 20
104.8497422611927
 30
0.0
 11
194.40000000000001
 21
100.0
 31
0.0
  0
ARC
  5
270
  8
DATA
  6
CONTINUOUS
 62
     7
 10
197.40000000000001
 20
112.2266103233906
 30
0.0
 40
1.0000000000000051
 50
282.00517283075197
 51
0.0
  0
ARC
  5
271
  8
DATA
  6
CONTINUOUS
 62
     7
 10
200.0
 20
129.99999999999989
 30
0.0
 40
12.74999999999998
 50
280.89973545408759
 51
0.0
  0
ARC
  5
272
  8
DATA
  6
CONTINUOUS
 62
     7
 10
213.75
 20
132.44999999999999
 30
0.0
 40
1.0
 50
90.0
 51
180.0
  0
LINE
  5
273
  8
DATA
  6
CONTINUOUS
 62
     7
 10
212.74999999999989
 20
132.44999999999999
 30
0.0
 11
212.74999999999989
 21
129.99999999999989
 31
0.0
  0
ARC
  5
274
  8
DATA
  6
CONTINUOUS
 62
     7
 10
200.0
 20
100.0
 30
0.0
 40
11.500000000000011
 50
12.005172830751549
 51
77.9948271692448
  0
LINE
  5
275
  8
DATA
  6
CONTINUOUS
 62
     7
 10
205.59999999999991
 20
100.0
 30
0.0
 11
202.80000000000001
 21
104.8497422611928
 31
0.0
  0
ARC
  5
276
  8
DATA
  6
CONTINUOUS
 62
     7
 10
212.22661032339141
 20
102.59999999999999
 30
0.0
 40
1.0000000000000551
 50
192.00517283074959
 51
270.0
  0
LINE
  5
277
  8
DATA
  6
CONTINUOUS
 62
     7
 10
219.75
 20
136.74999999999989
 30
0.0
 11
219.75
 21
63.25
 31
0.0
  0
ARC
  5
278
  8
DATA
  6
CONTINUOUS
 62
     7
 10
215.44999999999999
 20
97.399999999999935
 30
0.0
 40
1.0
 50
0.0
 51
90.0
  0
LINE
  5
279
  8
DATA
  6
CONTINUOUS
 62
     7
 10
216.4500000000001
 20
97.399999999999935
 30
0.0
 11
216.4500000000001
 21
67.550000000000182
 31
0.0
  0
ARC
  5
27A
  8
DATA
  6
CONTINUOUS
 62
     7
 10
215.45000000000019
 20
67.550000000000182
 30
0.0
 40
1.0
 50
270.0
 51
0.0
  0
LINE
  5
27B
  8
DATA
  6
CONTINUOUS
 62
     7
 10
216.4499999999999
 20
132.44999999999999
 30
0.0
 11
216.4500000000001
 21
102.59999999999999
 31
0.0
  0
ARC
  5
27C
  8
DATA
  6
CONTINUOUS
 62
     7
 10
215.44999999999999
 20
132.44999999999999
 30
0.0
 40
1.0
 50
0.0
 51
90.0
  0
ARC
  5
27D
  8
DATA
  6
CONTINUOUS
 62
     7
 10
215.44999999999999
 20
102.59999999999999
 30
0.0
 40
1.0
 50
270.0
 51
0.0
  0
TEXT
  5
27E
  8
DATA
 62
     7
 10
200.0
 20
-91.140903307324052
 30
0.0
 40
5.0800000000000001
  1
CONTROL 23用付属金具
 41
0.8
 11
200.0
 21
-86.060903307324054
 31
0.0
 73
     3
  0
ENDSEC
  0
EOF
